  0
SECTION
  2
HEADER
  9
$ACADVER
  1
AC1015
  9
$ACADMAINTVER
 70
     6
  9
$DWGCODEPAGE
  3
ANSI_1254
  9
$INSBASE
 10
0.0
 20
0.0
 30
0.0
  9
$EXTMIN
 10
0.0
 20
0.0
 30
0.0
  9
$EXTMAX
 10
279.4
 20
215.9
 30
0.0
  9
$LIMMIN
 10
0.0
 20
0.0
  9
$LIMMAX
 10
279.4
 20
215.9
  9
$ORTHOMODE
 70
     0
  9
$REGENMODE
 70
     1
  9
$FILLMODE
 70
     1
  9
$QTEXTMODE
 70
     0
  9
$MIRRTEXT
 70
     1
  9
$LTSCALE
 40
1.0
  9
$ATTMODE
 70
     1
  9
$TEXTSIZE
 40
3.5
  9
$TRACEWID
 40
1.0
  9
$TEXTSTYLE
  7
Standard
  9
$CLAYER
  8
0
  9
$CELTYPE
  6
ByLayer
  9
$CECOLOR
 62
   256
  9
$CELTSCALE
 40
1.0
  9
$DISPSILH
 70
     0
  9
$DIMSCALE
 40
1.0
  9
$DIMASZ
 40
3.5
  9
$DIMEXO
 40
1.0
  9
$DIMDLI
 40
3.75
  9
$DIMRND
 40
0.0
  9
$DIMDLE
 40
0.0
  9
$DIMEXE
 40
1.0
  9
$DIMTP
 40
0.0
  9
$DIMTM
 40
0.0
  9
$DIMTXT
 40
3.5
  9
$DIMCEN
 40
2.5
  9
$DIMTSZ
 40
0.0
  9
$DIMTOL
 70
     0
  9
$DIMLIM
 70
     0
  9
$DIMTIH
 70
     1
  9
$DIMTOH
 70
     1
  9
$DIMSE1
 70
     0
  9
$DIMSE2
 70
     0
  9
$DIMTAD
 70
     1
  9
$DIMZIN
 70
     0
  9
$DIMBLK
  1

  9
$DIMASO
 70
     1
  9
$DIMSHO
 70
     1
  9
$DIMPOST
  1

  9
$DIMAPOST
  1

  9
$DIMALT
 70
     0
  9
$DIMALTD
 70
     3
  9
$DIMALTF
 40
0.0393700787
  9
$DIMLFAC
 40
1.0
  9
$DIMTOFL
 70
     1
  9
$DIMTVP
 40
0.0
  9
$DIMTIX
 70
     0
  9
$DIMSOXD
 70
     0
  9
$DIMSAH
 70
     0
  9
$DIMBLK1
  1

  9
$DIMBLK2
  1

  9
$DIMSTYLE
  2
ISO-25
  9
$DIMCLRD
 70
     0
  9
$DIMCLRE
 70
     0
  9
$DIMCLRT
 70
     0
  9
$DIMTFAC
 40
1.0
  9
$DIMGAP
 40
1.524
  9
$DIMJUST
 70
     0
  9
$DIMSD1
 70
     0
  9
$DIMSD2
 70
     0
  9
$DIMTOLJ
 70
     0
  9
$DIMTZIN
 70
     0
  9
$DIMALTZ
 70
     0
  9
$DIMALTTZ
 70
     0
  9
$DIMUPT
 70
     0
  9
$DIMDEC
 70
     2
  9
$DIMTDEC
 70
     2
  9
$DIMALTU
 70
     2
  9
$DIMALTTD
 70
     3
  9
$DIMTXSTY
  7
Standard
  9
$DIMAUNIT
 70
     0
  9
$DIMADEC
 70
     2
  9
$DIMALTRND
 40
0.0
  9
$DIMAZIN
 70
     0
  9
$DIMDSEP
 70
    44
  9
$DIMATFIT
 70
     3
  9
$DIMFRAC
 70
     0
  9
$DIMLDRBLK
  1

  9
$DIMLUNIT
 70
     2
  9
$DIMLWD
 70
    -2
  9
$DIMLWE
 70
    -2
  9
$DIMTMOVE
 70
     0
  9
$LUNITS
 70
     2
  9
$LUPREC
 70
     2
  9
$SKETCHINC
 40
1.0
  9
$FILLETRAD
 40
10.0
  9
$AUNITS
 70
     0
  9
$AUPREC
 70
     2
  9
$MENU
  1
.
  9
$ELEVATION
 40
0.0
  9
$PELEVATION
 40
0.0
  9
$THICKNESS
 40
0.0
  9
$LIMCHECK
 70
     0
  9
$CHAMFERA
 40
0.0
  9
$CHAMFERB
 40
0.0
  9
$CHAMFERC
 40
0.0
  9
$CHAMFERD
 40
0.0
  9
$SKPOLY
 70
     0
  9
$TDCREATE
 40
2458985.699616898
  9
$TDUCREATE
 40
2458985.574616898
  9
$TDUPDATE
 40
2458985.699617153
  9
$TDUUPDATE
 40
2458985.574617153
  9
$TDINDWG
 40
0.0000000116
  9
$TDUSRTIMER
 40
0.0000000116
  9
$USRTIMER
 70
     1
  9
$ANGBASE
 50
0.0
  9
$ANGDIR
 70
     0
  9
$PDMODE
 70
     0
  9
$PDSIZE
 40
-1.0
  9
$PLINEWID
 40
0.0
  9
$SPLFRAME
 70
     0
  9
$SPLINETYPE
 70
     6
  9
$SPLINESEGS
 70
     8
  9
$HANDSEED
  5
EF
  9
$SURFTAB1
 70
     6
  9
$SURFTAB2
 70
     6
  9
$SURFTYPE
 70
     6
  9
$SURFU
 70
     6
  9
$SURFV
 70
     6
  9
$UCSBASE
  2

  9
$UCSNAME
  2

  9
$UCSORG
 10
0.0
 20
0.0
 30
0.0
  9
$UCSXDIR
 10
1.0
 20
0.0
 30
0.0
  9
$UCSYDIR
 10
0.0
 20
1.0
 30
0.0
  9
$UCSORTHOREF
  2

  9
$UCSORTHOVIEW
 70
     0
  9
$UCSORGTOP
 10
0.0
 20
0.0
 30
0.0
  9
$UCSORGBOTTOM
 10
0.0
 20
0.0
 30
0.0
  9
$UCSORGLEFT
 10
0.0
 20
0.0
 30
0.0
  9
$UCSORGRIGHT
 10
0.0
 20
0.0
 30
0.0
  9
$UCSORGFRONT
 10
0.0
 20
0.0
 30
0.0
  9
$UCSORGBACK
 10
0.0
 20
0.0
 30
0.0
  9
$PUCSBASE
  2

  9
$PUCSNAME
  2

  9
$PUCSORG
 10
0.0
 20
0.0
 30
0.0
  9
$PUCSXDIR
 10
1.0
 20
0.0
 30
0.0
  9
$PUCSYDIR
 10
0.0
 20
1.0
 30
0.0
  9
$PUCSORTHOREF
  2

  9
$PUCSORTHOVIEW
 70
     0
  9
$PUCSORGTOP
 10
0.0
 20
0.0
 30
0.0
  9
$PUCSORGBOTTOM
 10
0.0
 20
0.0
 30
0.0
  9
$PUCSORGLEFT
 10
0.0
 20
0.0
 30
0.0
  9
$PUCSORGRIGHT
 10
0.0
 20
0.0
 30
0.0
  9
$PUCSORGFRONT
 10
0.0
 20
0.0
 30
0.0
  9
$PUCSORGBACK
 10
0.0
 20
0.0
 30
0.0
  9
$USERI1
 70
     0
  9
$USERI2
 70
     0
  9
$USERI3
 70
     0
  9
$USERI4
 70
     0
  9
$USERI5
 70
     0
  9
$USERR1
 40
0.0
  9
$USERR2
 40
0.0
  9
$USERR3
 40
0.0
  9
$USERR4
 40
0.0
  9
$USERR5
 40
0.0
  9
$WORLDVIEW
 70
     1
  9
$SHADEDGE
 70
     3
  9
$SHADEDIF
 70
    70
  9
$TILEMODE
 70
     1
  9
$MAXACTVP
 70
    64
  9
$PINSBASE
 10
0.0
 20
0.0
 30
0.0
  9
$PLIMCHECK
 70
     0
  9
$PEXTMIN
 10
1.0000000000E+20
 20
1.0000000000E+20
 30
1.0000000000E+20
  9
$PEXTMAX
 10
-1.0000000000E+20
 20
-1.0000000000E+20
 30
-1.0000000000E+20
  9
$PLIMMIN
 10
0.0
 20
0.0
  9
$PLIMMAX
 10
420.0
 20
297.0
  9
$UNITMODE
 70
     0
  9
$VISRETAIN
 70
     1
  9
$PLINEGEN
 70
     0
  9
$PSLTSCALE
 70
     1
  9
$TREEDEPTH
 70
  3020
  9
$CMLSTYLE
  2
Standard
  9
$CMLJUST
 70
     0
  9
$CMLSCALE
 40
20.0
  9
$PROXYGRAPHICS
 70
     1
  9
$MEASUREMENT
 70
     1
  9
$CELWEIGHT
370
    -1
  9
$ENDCAPS
280
     0
  9
$JOINSTYLE
280
     0
  9
$LWDISPLAY
290
     1
  9
$INSUNITS
 70
     4
  9
$HYPERLINKBASE
  1

  9
$STYLESHEET
  1

  9
$XEDIT
290
     1
  9
$CEPSNTYPE
380
     0
  9
$PSTYLEMODE
290
     1
  9
$FINGERPRINTGUID
  2
{f9606640-3ef0-44d3-9b63-323db6882f40}
  9
$VERSIONGUID
  2
{FAEB1C32-E019-11D5-929B-00C0DF256EC4}
  9
$EXTNAMES
290
     1
  9
$PSVPSCALE
 40
0.0
  9
$OLESTARTUP
290
     0
  0
ENDSEC
  0
SECTION
  2
CLASSES
  0
CLASS
  1
ACDBDICTIONARYWDFLT
  2
AcDbDictionaryWithDefault
  3
ObjectDBX Classes
 90
        0
280
     0
281
     0
  0
CLASS
  1
VISUALSTYLE
  2
AcDbVisualStyle
  3
ObjectDBX Classes
 90
     4095
280
     0
281
     0
  0
CLASS
  1
MATERIAL
  2
AcDbMaterial
  3
ObjectDBX Classes
 90
     1153
280
     0
281
     0
  0
CLASS
  1
SCALE
  2
AcDbScale
  3
ObjectDBX Classes
 90
     1153
280
     0
281
     0
  0
CLASS
  1
TABLESTYLE
  2
AcDbTableStyle
  3
ObjectDBX Classes
 90
     4095
280
     0
281
     0
  0
CLASS
  1
MLEADERSTYLE
  2
AcDbMLeaderStyle
  3
ACDB_MLEADERSTYLE_CLASS
 90
     4095
280
     0
281
     0
  0
CLASS
  1
SUN
  2
AcDbSun
  3
SCENEOE
 90
     1153
280
     0
281
     0
  0
CLASS
  1
ACDBPLACEHOLDER
  2
AcDbPlaceHolder
  3
ObjectDBX Classes
 90
        0
280
     0
281
     0
  0
CLASS
  1
LAYOUT
  2
AcDbLayout
  3
ObjectDBX Classes
 90
        0
280
     0
281
     0
  0
ENDSEC
  0
SECTION
  2
TABLES
  0
TABLE
  2
VPORT
  5
8
330
0
100
AcDbSymbolTable
 70
     1
  0
VPORT
  5
29
330
8
100
AcDbSymbolTableRecord
100
AcDbViewportTableRecord
  2
*Active
 70
     0
 10
0.0
 20
0.0
 11
1.0
 21
1.0
 12
139.7
 22
107.95
 13
0.0
 23
0.0
 14
10.0
 24
10.0
 15
10.0
 25
10.0
 16
0.0
 26
0.0
 36
1.0
 17
0.0
 27
0.0
 37
0.0
 40
215.9
 41
1.2941176471
 42
50.0
 43
0.0
 44
0.0
 50
0.0
 51
0.0
 71
     0
 72
  2000
 73
     1
 74
     3
 75
     0
 76
     0
 77
     0
 78
     0
281
     0
 65
     1
110
0.0
120
0.0
130
0.0
111
1.0
121
0.0
131
0.0
112
0.0
122
1.0
132
0.0
 79
     0
146
0.0
  0
ENDTAB
  0
TABLE
  2
LTYPE
  5
5
330
0
100
AcDbSymbolTable
 70
     6
  0
LTYPE
  5
14
330
5
100
AcDbSymbolTableRecord
100
AcDbLinetypeTableRecord
  2
ByBlock
 70
     0
  3

 72
    65
 73
     0
 40
0.0
  0
LTYPE
  5
15
330
5
100
AcDbSymbolTableRecord
100
AcDbLinetypeTableRecord
  2
ByLayer
 70
     0
  3

 72
    65
 73
     0
 40
0.0
  0
LTYPE
  5
16
330
5
100
AcDbSymbolTableRecord
100
AcDbLinetypeTableRecord
  2
Continuous
 70
     0
  3
Solid line
 72
    65
 73
     0
 40
0.0
  0
LTYPE
  5
6E
330
5
100
AcDbSymbolTableRecord
100
AcDbLinetypeTableRecord
  2
HIDDEN
 70
     0
  3
Hidden __ __ __ __ __ __ __ __ __ __ __ __ __ __
 72
    65
 73
     2
 40
1.905
 49
1.27
 74
     0
 49
-0.635
 74
     0
  0
LTYPE
  5
6F
330
5
100
AcDbSymbolTableRecord
100
AcDbLinetypeTableRecord
  2
PHANTOM
 70
     0
  3
Phantom ______  __  __  ______  __  __  ______
 72
    65
 73
     6
 40
12.7
 49
6.35
 74
     0
 49
-1.27
 74
     0
 49
1.27
 74
     0
 49
-1.27
 74
     0
 49
1.27
 74
     0
 49
-1.27
 74
     0
  0
LTYPE
  5
70
330
5
100
AcDbSymbolTableRecord
100
AcDbLinetypeTableRecord
  2
CENTER
 70
     0
  3
Center ____ _ ____ _ ____ _ ____ _ ____ _ ____
 72
    65
 73
     4
 40
10.16
 49
6.35
 74
     0
 49
-1.27
 74
     0
 49
1.27
 74
     0
 49
-1.27
 74
     0
  0
LTYPE
  5
71
330
5
100
AcDbSymbolTableRecord
100
AcDbLinetypeTableRecord
  2
CENTERX2
 70
     0
  3
Center (2x) ________  __  ________  __  _____
 72
    65
 73
     4
 40
20.32
 49
12.7
 74
     0
 49
-2.54
 74
     0
 49
2.54
 74
     0
 49
-2.54
 74
     0
  0
LTYPE
  5
72
330
5
100
AcDbSymbolTableRecord
100
AcDbLinetypeTableRecord
  2
DOT2
 70
     0
  3
Dot (.5x) ........................................
 72
    65
 73
     2
 40
0.635
 49
0.0
 74
     0
 49
-0.635
 74
     0
  0
ENDTAB
  0
TABLE
  2
LAYER
  5
2
330
0
100
AcDbSymbolTable
 70
    17
  0
LAYER
  5
10
330
2
100
AcDbSymbolTableRecord
100
AcDbLayerTableRecord
  2
0
 70
     0
 62
     7
  6
Continuous
370
    -3
390
F
  0
LAYER
  5
73
330
2
100
AcDbSymbolTableRecord
100
AcDbLayerTableRecord
  2
FORMAT
 70
     0
 62
     7
  6
Continuous
370
    -3
390
F
  0
LAYER
  5
74
330
2
100
AcDbSymbolTableRecord
100
AcDbLayerTableRecord
  2
YARDIMCI_GEOMETRI
 70
     0
 62
    -6
  6
Continuous
290
     0
370
    -3
390
F
  0
LAYER
  5
75
330
2
100
AcDbSymbolTableRecord
100
AcDbLayerTableRecord
  2
SAYFA_CERCEVESI
 70
     0
 62
     7
  6
Continuous
370
    25
390
F
  0
LAYER
  5
76
330
2
100
AcDbSymbolTableRecord
100
AcDbLayerTableRecord
  2
ANTET
 70
     0
 62
     7
  6
Continuous
370
    -3
390
F
  0
LAYER
  5
77
330
2
100
AcDbSymbolTableRecord
100
AcDbLayerTableRecord
  2
OLCU
 70
     0
 62
   150
  6
Continuous
370
    -3
390
F
  0
LAYER
  5
78
330
2
100
AcDbSymbolTableRecord
100
AcDbLayerTableRecord
  2
METIN
 70
     0
 62
    96
  6
Continuous
370
    -3
390
F
  0
LAYER
  5
79
330
2
100
AcDbSymbolTableRecord
100
AcDbLayerTableRecord
  2
BALON
 70
     0
 62
     5
  6
Continuous
370
    -3
390
F
  0
LAYER
  5
7A
330
2
100
AcDbSymbolTableRecord
100
AcDbLayerTableRecord
  2
VURGU
 70
     0
 62
     7
  6
Continuous
370
    -3
390
F
  0
LAYER
  5
7B
330
2
100
AcDbSymbolTableRecord
100
AcDbLayerTableRecord
  2
SILIK
 70
     0
 62
     7
  6
Continuous
370
    -3
390
F
  0
LAYER
  5
7C
330
2
100
AcDbSymbolTableRecord
100
AcDbLayerTableRecord
  2
MODEL
 70
     0
 62
     7
  6
Continuous
370
    -3
390
F
  0
LAYER
  5
7D
330
2
100
AcDbSymbolTableRecord
100
AcDbLayerTableRecord
  2
DETAYLANDıRMA
 70
     0
 62
   190
  6
Continuous
370
    -3
390
F
  0
LAYER
  5
7E
330
2
100
AcDbSymbolTableRecord
100
AcDbLayerTableRecord
  2
TOLERANS
 70
     0
 62
   230
  6
Continuous
370
    -3
390
F
  0
LAYER
  5
7F
330
2
100
AcDbSymbolTableRecord
100
AcDbLayerTableRecord
  2
MERKEZ_CIZGILERI
 70
     0
 62
    30
  6
Continuous
370
    -3
390
F
  0
LAYER
  5
80
330
2
100
AcDbSymbolTableRecord
100
AcDbLayerTableRecord
  2
KESIT-DETAY_CIZGILERI
 70
     0
 62
     7
  6
Continuous
370
    -3
390
F
  0
LAYER
  5
81
330
2
100
AcDbSymbolTableRecord
100
AcDbLayerTableRecord
  2
\U+041E\U+0421\U+0415\U+0412\U+042B\U+0415
 70
     0
 62
     7
  6
Continuous
370
    -3
390
F
  0
LAYER
  5
82
330
2
100
AcDbSymbolTableRecord
100
AcDbLayerTableRecord
  2
\U+0412\U+041E\U+0414\U+042F\U+041D\U+042B\U+0415_\U+0417\U+041D\U+0410\U+041A\U+0418
 70
     0
 62
    11
  6
Continuous
370
    -3
390
F
  0
ENDTAB
  0
TABLE
  2
STYLE
  5
3
330
0
100
AcDbSymbolTable
 70
     1
  0
STYLE
  5
11
330
3
100
AcDbSymbolTableRecord
100
AcDbTextStyleTableRecord
  2
Standard
 70
     0
 40
0.0
 41
1.0
 50
0.0
 71
     0
 42
3.5
  3
txt
  4

  0
ENDTAB
  0
TABLE
  2
VIEW
  5
6
330
0
100
AcDbSymbolTable
 70
     0
  0
ENDTAB
  0
TABLE
  2
UCS
  5
7
330
0
100
AcDbSymbolTable
 70
     0
  0
ENDTAB
  0
TABLE
  2
APPID
  5
9
330
0
100
AcDbSymbolTable
 70
     1
  0
APPID
  5
12
330
9
100
AcDbSymbolTableRecord
100
AcDbRegAppTableRecord
  2
ACAD
 70
     0
  0
ENDTAB
  0
TABLE
  2
DIMSTYLE
  5
A
330
0
100
AcDbSymbolTable
 70
     1
100
AcDbDimStyleTable
  0
DIMSTYLE
105
27
330
A
100
AcDbSymbolTableRecord
100
AcDbDimStyleTableRecord
  2
ISO-25
 70
     0
 41
2.5
 42
0.625
 43
3.75
 44
1.25
 73
     0
 74
     0
 77
     1
 78
     8
140
2.5
141
2.5
143
0.0393700787
147
0.625
171
     3
172
     1
178
     0
271
     2
272
     2
274
     3
278
    44
283
     0
284
     8
340
11
  0
ENDTAB
  0
TABLE
  2
BLOCK_RECORD
  5
1
330
0
100
AcDbSymbolTable
 70
     2
  0
BLOCK_RECORD
  5
1F
330
1
100
AcDbSymbolTableRecord
100
AcDbBlockTableRecord
  2
*Model_Space
340
22
  0
BLOCK_RECORD
  5
1B
330
1
100
AcDbSymbolTableRecord
100
AcDbBlockTableRecord
  2
*Paper_Space
340
1E
  0
BLOCK_RECORD
  5
23
330
1
100
AcDbSymbolTableRecord
100
AcDbBlockTableRecord
  2
*Paper_Space0
340
26
  0
BLOCK_RECORD
  5
88
330
1
100
AcDbSymbolTableRecord
100
AcDbBlockTableRecord
  2
SW_CENTERMARKSYMBOL_0
340
0
102
{BLKREFS
331
93
102
}
  0
ENDTAB
  0
ENDSEC
  0
SECTION
  2
BLOCKS
  0
BLOCK
  5
20
330
1F
100
AcDbEntity
  8
0
100
AcDbBlockBegin
  2
*Model_Space
 70
     0
 10
0.0
 20
0.0
 30
0.0
  3
*Model_Space
  1

  0
ENDBLK
  5
21
330
1F
100
AcDbEntity
  8
0
100
AcDbBlockEnd
  0
BLOCK
  5
1C
330
1B
100
AcDbEntity
 67
     1
  8
0
100
AcDbBlockBegin
  2
*Paper_Space
 70
     0
 10
0.0
 20
0.0
 30
0.0
  3
*Paper_Space
  1

  0
ENDBLK
  5
1D
330
1B
100
AcDbEntity
 67
     1
  8
0
100
AcDbBlockEnd
  0
BLOCK
  5
24
330
23
100
AcDbEntity
  8
0
100
AcDbBlockBegin
  2
*Paper_Space0
 70
     0
 10
0.0
 20
0.0
 30
0.0
  3
*Paper_Space0
  1

  0
ENDBLK
  5
25
330
23
100
AcDbEntity
  8
0
100
AcDbBlockEnd
  0
BLOCK
  5
89
330
88
100
AcDbEntity
  8
0
100
AcDbBlockBegin
  2
SW_CENTERMARKSYMBOL_0
 70
     0
 10
0.0
 20
0.0
 30
0.0
  3
SW_CENTERMARKSYMBOL_0
  1

  0
LINE
  5
8B
330
88
100
AcDbEntity
  8
FORMAT
 62
     0
100
AcDbLine
 10
0.0
 20
0.0
 30
0.0
 11
0.0
 21
2.5
 31
0.0
  0
LINE
  5
8C
330
88
100
AcDbEntity
  8
FORMAT
 62
     0
100
AcDbLine
 10
0.0
 20
0.0
 30
0.0
 11
-2.5
 21
0.0
 31
0.0
  0
LINE
  5
8D
330
88
100
AcDbEntity
  8
FORMAT
 62
     0
100
AcDbLine
 10
0.0
 20
0.0
 30
0.0
 11
0.0
 21
-2.5
 31
0.0
  0
LINE
  5
8E
330
88
100
AcDbEntity
  8
FORMAT
 62
     0
100
AcDbLine
 10
0.0
 20
0.0
 30
0.0
 11
2.5
 21
0.0
 31
0.0
  0
LINE
  5
8F
330
88
100
AcDbEntity
  8
FORMAT
 62
     0
100
AcDbLine
 10
0.0
 20
5.0
 30
0.0
 11
0.0
 21
127.5
 31
0.0
  0
LINE
  5
90
330
88
100
AcDbEntity
  8
FORMAT
 62
     0
100
AcDbLine
 10
-5.0
 20
0.0
 30
0.0
 11
-127.5
 21
0.0
 31
0.0
  0
LINE
  5
91
330
88
100
AcDbEntity
  8
FORMAT
 62
     0
100
AcDbLine
 10
0.0
 20
-5.0
 30
0.0
 11
0.0
 21
-127.5
 31
0.0
  0
LINE
  5
92
330
88
100
AcDbEntity
  8
FORMAT
 62
     0
100
AcDbLine
 10
5.0
 20
0.0
 30
0.0
 11
127.5
 21
0.0
 31
0.0
  0
ENDBLK
  5
8A
330
88
100
AcDbEntity
  8
0
100
AcDbBlockEnd
  0
ENDSEC
  0
SECTION
  2
ENTITIES
  0
CIRCLE
  5
83
330
1F
100
AcDbEntity
  8
0
  6
Continuous
 62
     7
370
    25
100
AcDbCircle
 10
139.395004093
 20
107.5851680021
 30
0.0
 40
125.0
  0
CIRCLE
  5
84
330
1F
100
AcDbEntity
  8
0
  6
Continuous
 62
     7
370
    25
100
AcDbCircle
 10
139.395004093
 20
107.5851680021
 30
0.0
 40
102.3
  0
CIRCLE
  5
85
330
1F
100
AcDbEntity
  8
0
  6
Continuous
 62
     7
370
    25
100
AcDbCircle
 10
139.395004093
 20
107.5851680021
 30
0.0
 40
102.1799079299526
  0
CIRCLE
  5
86
330
1F
100
AcDbEntity
  8
0
  6
Continuous
 62
     7
370
    25
100
AcDbCircle
 10
139.395004093
 20
107.5851680021
 30
0.0
 40
92.12009207004743
  0
CIRCLE
  5
87
330
1F
100
AcDbEntity
  8
0
  6
Continuous
 62
     7
370
    25
100
AcDbCircle
 10
139.395004093
 20
107.5851680021
 30
0.0
 40
92.00000000000003
  0
INSERT
  5
93
330
1F
100
AcDbEntity
  8
FORMAT
 62
     7
100
AcDbBlockReference
  2
SW_CENTERMARKSYMBOL_0
 10
139.395004093
 20
107.5851680021
 30
0.0
  0
ARC
  5
94
330
1F
100
AcDbEntity
  8
0
  6
Continuous
 62
     7
370
    25
100
AcDbCircle
 10
-321.5559364788
 20
230.5851680021
 30
0.0
 40
2.000000000000056
100
AcDbArc
 50
77.4170375059
 51
90.0
  0
ARC
  5
95
330
1F
100
AcDbEntity
  8
0
  6
Continuous
 62
     7
370
    25
100
AcDbCircle
 10
-321.5559364788
 20
-15.4148319979
 30
0.0
 40
2.000000000000036
100
AcDbArc
 50
270.0
 51
282.5829624941
  0
LINE
  5
96
330
1F
100
AcDbEntity
  8
0
  6
Continuous
 62
     7
370
    25
100
AcDbLine
 10
-321.5559359289
 20
232.5851680021
 30
0.0
 11
-450.3354329265
 21
232.5851680021
 31
0.0
  0
LINE
  5
97
330
1F
100
AcDbEntity
  8
0
  6
Continuous
 62
     7
370
    25
100
AcDbLine
 10
-450.3354329265
 20
-17.4148319979
 30
0.0
 11
-321.5559359289
 21
-17.4148319979
 31
0.0
  0
LINE
  5
98
330
1F
100
AcDbEntity
  8
0
  6
Continuous
 62
     7
370
    25
100
AcDbLine
 10
-321.1202297009
 20
-17.3667981048
 30
0.0
 11
-265.5506405628
 21
-4.9628703613
 31
0.0
  0
LINE
  5
99
330
1F
100
AcDbEntity
  8
0
  6
Continuous
 62
     7
370
    25
100
AcDbLine
 10
-265.5506405628
 20
220.1332063656
 30
0.0
 11
-321.1202297009
 21
232.537134109
 31
0.0
  0
ARC
  5
9A
330
1F
100
AcDbEntity
  8
0
  6
Continuous
 62
     7
370
    25
100
AcDbCircle
 10
-265.1149343275
 20
222.0851680021
 30
0.0
 40
2.000000000000013
100
AcDbArc
 50
257.4170375059
 51
270.0
  0
ARC
  5
9B
330
1F
100
AcDbEntity
  8
0
  6
Continuous
 62
     7
370
    25
100
AcDbCircle
 10
-265.1149343275
 20
-6.9148319979
 30
0.0
 40
2.000000000000019
100
AcDbArc
 50
90.0
 51
102.5829624941
  0
LINE
  5
9C
330
1F
100
AcDbEntity
  8
0
  6
Continuous
 62
     7
370
    25
100
AcDbLine
 10
-145.3354406751
 20
220.0851650219
 30
0.0
 11
-265.1149343348
 21
220.0851650219
 31
0.0
  0
LINE
  5
9D
330
1F
100
AcDbEntity
  8
0
  6
Continuous
 62
     7
370
    25
100
AcDbLine
 10
-265.1149343348
 20
-4.9148290177
 30
0.0
 11
-145.3354406751
 21
-4.9148290177
 31
0.0
  0
LINE
  5
9E
330
1F
100
AcDbEntity
  8
0
  6
Continuous
 62
     7
370
    25
100
AcDbLine
 10
-450.3354329265
 20
232.5851680021
 30
0.0
 11
-450.3354329265
 21
-17.4148319979
 31
0.0
  0
LINE
  5
9F
330
1F
100
AcDbEntity
  8
0
  6
Continuous
 62
     7
370
    25
100
AcDbLine
 10
-145.3354406751
 20
220.0851650219
 30
0.0
 11
-145.3354406751
 21
-4.9148290177
 31
0.0
  0
LINE
  5
A0
330
1F
100
AcDbEntity
  8
0
  6
Continuous
 62
     1
370
    25
100
AcDbLine
 10
-321.1202297009
 20
232.537134109
 30
0.0
 11
-321.1202297009
 21
-17.3667981048
 31
0.0
  0
LINE
  5
A1
330
1F
100
AcDbEntity
  8
0
  6
Continuous
 62
     1
370
    25
100
AcDbLine
 10
-321.5559359289
 20
232.5851680021
 30
0.0
 11
-321.5559359289
 21
-17.4148319979
 31
0.0
  0
LINE
  5
A2
330
1F
100
AcDbEntity
  8
0
  6
Continuous
 62
     1
370
    25
100
AcDbLine
 10
-265.5506405628
 20
220.1332063656
 30
0.0
 11
-265.5506405628
 21
-4.9628703613
 31
0.0
  0
LINE
  5
A3
330
1F
100
AcDbEntity
  8
0
  6
Continuous
 62
     1
370
    25
100
AcDbLine
 10
-265.1149343348
 20
220.0851650219
 30
0.0
 11
-265.1149343348
 21
-4.9148290177
 31
0.0
  0
ARC
  5
A4
330
1F
100
AcDbEntity
  8
0
  6
Continuous
 62
     7
370
    25
100
AcDbCircle
 10
570.4916214707
 20
-15.4148319979
 30
0.0
 40
2.000000000000048
100
AcDbArc
 50
257.4170375059
 51
270.0
  0
ARC
  5
A5
330
1F
100
AcDbEntity
  8
0
  6
Continuous
 62
     7
370
    25
100
AcDbCircle
 10
570.4916214707
 20
230.5851680021
 30
0.0
 40
2.000000000000069
100
AcDbArc
 50
90.0
 51
102.5829624941
  0
LINE
  5
A6
330
1F
100
AcDbEntity
  8
0
  6
Continuous
 62
     7
370
    25
100
AcDbLine
 10
570.4916209208
 20
-17.4148319979
 30
0.0
 11
699.2711179184
 21
-17.4148319979
 31
0.0
  0
LINE
  5
A7
330
1F
100
AcDbEntity
  8
0
  6
Continuous
 62
     7
370
    25
100
AcDbLine
 10
699.2711179184
 20
232.5851680021
 30
0.0
 11
570.4916209208
 21
232.5851680021
 31
0.0
  0
LINE
  5
A8
330
1F
100
AcDbEntity
  8
0
  6
Continuous
 62
     7
370
    25
100
AcDbLine
 10
570.0559146927
 20
232.537134109
 30
0.0
 11
514.4863255547
 21
220.1332063656
 31
0.0
  0
LINE
  5
A9
330
1F
100
AcDbEntity
  8
0
  6
Continuous
 62
     7
370
    25
100
AcDbLine
 10
514.4863255547
 20
-4.9628703613
 30
0.0
 11
570.0559146927
 21
-17.3667981048
 31
0.0
  0
ARC
  5
AA
330
1F
100
AcDbEntity
  8
0
  6
Continuous
 62
     7
370
    25
100
AcDbCircle
 10
514.0506193194
 20
-6.9148319979
 30
0.0
 40
2.000000000000019
100
AcDbArc
 50
77.4170375059
 51
90.0
  0
ARC
  5
AB
330
1F
100
AcDbEntity
  8
0
  6
Continuous
 62
     7
370
    25
100
AcDbCircle
 10
514.0506193194
 20
222.0851680021
 30
0.0
 40
2.000000000000013
100
AcDbArc
 50
270.0
 51
282.5829624941
  0
LINE
  5
AC
330
1F
100
AcDbEntity
  8
0
  6
Continuous
 62
     7
370
    25
100
AcDbLine
 10
394.271125667
 20
-4.9148290177
 30
0.0
 11
514.0506193267
 21
-4.9148290177
 31
0.0
  0
LINE
  5
AD
330
1F
100
AcDbEntity
  8
0
  6
Continuous
 62
     7
370
    25
100
AcDbLine
 10
514.0506193267
 20
220.0851650219
 30
0.0
 11
394.271125667
 21
220.0851650219
 31
0.0
  0
LINE
  5
AE
330
1F
100
AcDbEntity
  8
0
  6
Continuous
 62
     7
370
    25
100
AcDbLine
 10
699.2711179184
 20
107.5851680021
 30
0.0
 11
699.2711179184
 21
232.5851680021
 31
0.0
  0
LINE
  5
AF
330
1F
100
AcDbEntity
  8
0
  6
Continuous
 62
     7
370
    25
100
AcDbLine
 10
699.2711179184
 20
-17.4148319979
 30
0.0
 11
699.2711179184
 21
107.5851680021
 31
0.0
  0
LINE
  5
B0
330
1F
100
AcDbEntity
  8
0
  6
Continuous
 62
     7
370
    25
100
AcDbLine
 10
394.271125667
 20
107.5851680021
 30
0.0
 11
394.271125667
 21
220.0851650219
 31
0.0
  0
LINE
  5
B1
330
1F
100
AcDbEntity
  8
0
  6
Continuous
 62
     7
370
    25
100
AcDbLine
 10
394.271125667
 20
-4.9148290177
 30
0.0
 11
394.271125667
 21
107.5851680021
 31
0.0
  0
LINE
  5
B2
330
1F
100
AcDbEntity
  8
0
  6
Continuous
 62
     1
370
    25
100
AcDbLine
 10
570.0559146927
 20
107.5851680021
 30
0.0
 11
570.0559146927
 21
232.537134109
 31
0.0
  0
LINE
  5
B3
330
1F
100
AcDbEntity
  8
0
  6
Continuous
 62
     1
370
    25
100
AcDbLine
 10
570.0559146927
 20
-17.3667981048
 30
0.0
 11
570.0559146927
 21
107.5851680021
 31
0.0
  0
LINE
  5
B4
330
1F
100
AcDbEntity
  8
0
  6
Continuous
 62
     1
370
    25
100
AcDbLine
 10
570.4916209208
 20
107.5851680021
 30
0.0
 11
570.4916209208
 21
232.5851680021
 31
0.0
  0
LINE
  5
B5
330
1F
100
AcDbEntity
  8
0
  6
Continuous
 62
     1
370
    25
100
AcDbLine
 10
570.4916209208
 20
-17.4148319979
 30
0.0
 11
570.4916209208
 21
107.5851680021
 31
0.0
  0
LINE
  5
B6
330
1F
100
AcDbEntity
  8
0
  6
Continuous
 62
     1
370
    25
100
AcDbLine
 10
514.4863255547
 20
107.5851680021
 30
0.0
 11
514.4863255547
 21
220.1332063656
 31
0.0
  0
LINE
  5
B7
330
1F
100
AcDbEntity
  8
0
  6
Continuous
 62
     1
370
    25
100
AcDbLine
 10
514.4863255547
 20
-4.9628703613
 30
0.0
 11
514.4863255547
 21
107.5851680021
 31
0.0
  0
LINE
  5
B8
330
1F
100
AcDbEntity
  8
0
  6
Continuous
 62
     1
370
    25
100
AcDbLine
 10
514.0506193267
 20
107.5851680021
 30
0.0
 11
514.0506193267
 21
220.0851650219
 31
0.0
  0
LINE
  5
B9
330
1F
100
AcDbEntity
  8
0
  6
Continuous
 62
     1
370
    25
100
AcDbLine
 10
514.0506193267
 20
-4.9148290177
 30
0.0
 11
514.0506193267
 21
107.5851680021
 31
0.0
  0
ARC
  5
BA
330
1F
100
AcDbEntity
  8
0
  6
Continuous
 62
     7
370
    25
100
AcDbCircle
 10
262.395004093
 20
517.3138518557
 30
0.0
 40
2.000000000000057
100
AcDbArc
 50
347.4170375059
 51
0.0
  0
ARC
  5
BB
330
1F
100
AcDbEntity
  8
0
  6
Continuous
 62
     7
370
    25
100
AcDbCircle
 10
16.395004093
 20
517.3138518557
 30
0.0
 40
2.00000000000003
100
AcDbArc
 50
180.0
 51
192.5829624941
  0
LINE
  5
BC
330
1F
100
AcDbEntity
  8
0
  6
Continuous
 62
     7
370
    25
100
AcDbLine
 10
264.395004093
 20
517.3138513058
 30
0.0
 11
264.395004093
 21
646.0933483034
 31
0.0
  0
LINE
  5
BD
330
1F
100
AcDbEntity
  8
0
  6
Continuous
 62
     7
370
    25
100
AcDbLine
 10
14.395004093
 20
646.0933483034
 30
0.0
 11
14.395004093
 21
517.3138513058
 31
0.0
  0
LINE
  5
BE
330
1F
100
AcDbEntity
  8
0
  6
Continuous
 62
     7
370
    25
100
AcDbLine
 10
14.4430379862
 20
516.8781450778
 30
0.0
 11
26.8469657296
 21
461.3085559397
 31
0.0
  0
LINE
  5
BF
330
1F
100
AcDbEntity
  8
0
  6
Continuous
 62
     7
370
    25
100
AcDbLine
 10
251.9430424565
 20
461.3085559397
 30
0.0
 11
264.3469701999
 21
516.8781450778
 31
0.0
  0
ARC
  5
C0
330
1F
100
AcDbEntity
  8
0
  6
Continuous
 62
     7
370
    25
100
AcDbCircle
 10
253.895004093
 20
460.8728497044
 30
0.0
 40
2.000000000000013
100
AcDbArc
 50
167.4170375059
 51
180.0
  0
ARC
  5
C1
330
1F
100
AcDbEntity
  8
0
  6
Continuous
 62
     7
370
    25
100
AcDbCircle
 10
24.895004093
 20
460.8728497044
 30
0.0
 40
2.00000000000002
100
AcDbArc
 50
0.0
 51
12.5829624941
  0
LINE
  5
C2
330
1F
100
AcDbEntity
  8
0
  6
Continuous
 62
     7
370
    25
100
AcDbLine
 10
251.8950011128
 20
341.093356052
 30
0.0
 11
251.8950011128
 21
460.8728497117
 31
0.0
  0
LINE
  5
C3
330
1F
100
AcDbEntity
  8
0
  6
Continuous
 62
     7
370
    25
100
AcDbLine
 10
26.8950070733
 20
460.8728497117
 30
0.0
 11
26.8950070733
 21
341.093356052
 31
0.0
  0
LINE
  5
C4
330
1F
100
AcDbEntity
  8
0
  6
Continuous
 62
     7
370
    25
100
AcDbLine
 10
264.395004093
 20
646.0933483034
 30
0.0
 11
14.395004093
 21
646.0933483034
 31
0.0
  0
LINE
  5
C5
330
1F
100
AcDbEntity
  8
0
  6
Continuous
 62
     7
370
    25
100
AcDbLine
 10
251.8950011128
 20
341.093356052
 30
0.0
 11
26.8950070733
 21
341.093356052
 31
0.0
  0
LINE
  5
C6
330
1F
100
AcDbEntity
  8
0
  6
Continuous
 62
     1
370
    25
100
AcDbLine
 10
264.3469701999
 20
516.8781450778
 30
0.0
 11
14.4430379862
 21
516.8781450778
 31
0.0
  0
LINE
  5
C7
330
1F
100
AcDbEntity
  8
0
  6
Continuous
 62
     1
370
    25
100
AcDbLine
 10
264.395004093
 20
517.3138513058
 30
0.0
 11
14.395004093
 21
517.3138513058
 31
0.0
  0
LINE
  5
C8
330
1F
100
AcDbEntity
  8
0
  6
Continuous
 62
     1
370
    25
100
AcDbLine
 10
251.9430424565
 20
461.3085559397
 30
0.0
 11
26.8469657296
 21
461.3085559397
 31
0.0
  0
LINE
  5
C9
330
1F
100
AcDbEntity
  8
0
  6
Continuous
 62
     1
370
    25
100
AcDbLine
 10
251.8950011128
 20
460.8728497117
 30
0.0
 11
26.8950070733
 21
460.8728497117
 31
0.0
  0
ARC
  5
CA
330
1F
100
AcDbEntity
  8
0
  6
Continuous
 62
     7
370
    25
100
AcDbCircle
 10
16.395004093
 20
-314.3694311444
 30
0.0
 40
2.000000000000048
100
AcDbArc
 50
167.4170375059
 51
180.0
  0
ARC
  5
CB
330
1F
100
AcDbEntity
  8
0
  6
Continuous
 62
     7
370
    25
100
AcDbCircle
 10
262.395004093
 20
-314.3694311444
 30
0.0
 40
2.000000000000069
100
AcDbArc
 50
0.0
 51
12.5829624941
  0
LINE
  5
CC
330
1F
100
AcDbEntity
  8
0
  6
Continuous
 62
     7
370
    25
100
AcDbLine
 10
14.395004093
 20
-314.3694305945
 30
0.0
 11
14.395004093
 21
-443.1489275921
 31
0.0
  0
LINE
  5
CD
330
1F
100
AcDbEntity
  8
0
  6
Continuous
 62
     7
370
    25
100
AcDbLine
 10
264.395004093
 20
-443.1489275921
 30
0.0
 11
264.395004093
 21
-314.3694305945
 31
0.0
  0
LINE
  5
CE
330
1F
100
AcDbEntity
  8
0
  6
Continuous
 62
     7
370
    25
100
AcDbLine
 10
264.3469701999
 20
-313.9337243665
 30
0.0
 11
251.9430424565
 21
-258.3641352284
 31
0.0
  0
LINE
  5
CF
330
1F
100
AcDbEntity
  8
0
  6
Continuous
 62
     7
370
    25
100
AcDbLine
 10
26.8469657296
 20
-258.3641352284
 30
0.0
 11
14.4430379862
 21
-313.9337243665
 31
0.0
  0
ARC
  5
D0
330
1F
100
AcDbEntity
  8
0
  6
Continuous
 62
     7
370
    25
100
AcDbCircle
 10
24.895004093
 20
-257.9284289931
 30
0.0
 40
2.000000000000008
100
AcDbArc
 50
347.4170375059
 51
0.0
  0
ARC
  5
D1
330
1F
100
AcDbEntity
  8
0
  6
Continuous
 62
     7
370
    25
100
AcDbCircle
 10
253.895004093
 20
-257.9284289931
 30
0.0
 40
2.000000000000001
100
AcDbArc
 50
180.0
 51
192.5829624941
  0
LINE
  5
D2
330
1F
100
AcDbEntity
  8
0
  6
Continuous
 62
     7
370
    25
100
AcDbLine
 10
26.8950070733
 20
-138.1489353407
 30
0.0
 11
26.8950070733
 21
-257.9284290004
 31
0.0
  0
LINE
  5
D3
330
1F
100
AcDbEntity
  8
0
  6
Continuous
 62
     7
370
    25
100
AcDbLine
 10
251.8950011128
 20
-257.9284290004
 30
0.0
 11
251.8950011128
 21
-138.1489353407
 31
0.0
  0
LINE
  5
D4
330
1F
100
AcDbEntity
  8
0
  6
Continuous
 62
     7
370
    25
100
AcDbLine
 10
14.395004093
 20
-443.1489275921
 30
0.0
 11
264.395004093
 21
-443.1489275921
 31
0.0
  0
LINE
  5
D5
330
1F
100
AcDbEntity
  8
0
  6
Continuous
 62
     7
370
    25
100
AcDbLine
 10
26.8950070733
 20
-138.1489353407
 30
0.0
 11
251.8950011128
 21
-138.1489353407
 31
0.0
  0
LINE
  5
D6
330
1F
100
AcDbEntity
  8
0
  6
Continuous
 62
     1
370
    25
100
AcDbLine
 10
14.4430379862
 20
-313.9337243665
 30
0.0
 11
264.3469701999
 21
-313.9337243665
 31
0.0
  0
LINE
  5
D7
330
1F
100
AcDbEntity
  8
0
  6
Continuous
 62
     1
370
    25
100
AcDbLine
 10
14.395004093
 20
-314.3694305945
 30
0.0
 11
264.395004093
 21
-314.3694305945
 31
0.0
  0
LINE
  5
D8
330
1F
100
AcDbEntity
  8
0
  6
Continuous
 62
     1
370
    25
100
AcDbLine
 10
26.8469657296
 20
-258.3641352284
 30
0.0
 11
251.9430424565
 21
-258.3641352284
 31
0.0
  0
LINE
  5
D9
330
1F
100
AcDbEntity
  8
0
  6
Continuous
 62
     1
370
    25
100
AcDbLine
 10
26.8950070733
 20
-257.9284290004
 30
0.0
 11
251.8950011128
 21
-257.9284290004
 31
0.0
  0
LINE
  5
DA
330
1F
100
AcDbEntity
  8
0
  6
Continuous
 62
     7
370
    25
100
AcDbLine
 10
602.3015170855
 20
-175.0314814155
 30
0.0
 11
511.2406614807
 21
-122.4631684229
 31
0.0
  0
LINE
  5
DB
330
1F
100
AcDbEntity
  8
0
  6
Continuous
 62
     7
370
    25
100
AcDbLine
 10
386.2508210104
 20
-338.9753806711
 30
0.0
 11
477.3116766152
 21
-391.5436936638
 31
0.0
  0
LINE
  5
DC
330
1F
100
AcDbEntity
  8
0
  6
Continuous
 62
     7
370
    25
100
AcDbLine
 10
488.2895477089
 20
-396.016837169
 30
0.0
 11
532.7278413479
 21
-407.5276402821
 31
0.0
  0
LINE
  5
DD
330
1F
100
AcDbEntity
  8
0
  6
Continuous
 62
     7
370
    25
100
AcDbLine
 10
643.8558572975
 20
-215.0274161438
 30
0.0
 11
611.6649900254
 21
-182.3011487235
 31
0.0
  0
LINE
  5
DE
330
1F
100
AcDbEntity
  8
0
  6
Continuous
 62
     7
370
    25
100
AcDbLine
 10
720.6587317131
 20
-257.7910089708
 30
0.0
 11
640.2737966425
 21
-211.3857737177
 31
0.0
  0
LINE
  5
DF
330
1F
100
AcDbEntity
  8
0
  6
Continuous
 62
     7
370
    25
100
AcDbLine
 10
527.782941273
 20
-406.2467726501
 30
0.0
 11
608.1678763436
 21
-452.6520079031
 31
0.0
  0
ARC
  5
E0
330
1F
100
AcDbEntity
  8
0
  6
Continuous
 62
     7
370
    25
100
AcDbCircle
 10
581.2504038519
 20
-211.4648182921
 30
0.0
 40
42.07775426912844
100
AcDbArc
 50
49.6187155952
 51
59.9807591373
  0
ARC
  5
E1
330
1F
100
AcDbEntity
  8
0
  6
Continuous
 62
     7
370
    25
100
AcDbCircle
 10
498.3411196586
 20
-355.0822926313
 30
0.0
 40
42.0912252133954
100
AcDbArc
 50
240.0254122511
 51
250.6356796964
  0
LWPOLYLINE
  5
E2
330
1F
100
AcDbEntity
  8
0
  6
Continuous
 62
     7
370
    25
100
AcDbPolyline
 90
      125
 70
   128
 43
0.0
 10
360.3573935972
 20
-281.7447815359
 10
360.4708371084
 20
-276.5096527089
 10
360.8108831505
 20
-271.1569798631
 10
361.3766571766
 20
-265.7005033402
 10
362.1667103886
 20
-260.1542280691
 10
363.1790039328
 20
-254.5323988494
 10
364.4109510465
 20
-248.8494353357
 10
365.8593801791
 20
-243.1199396389
 10
367.5205771397
 20
-237.3586065952
 10
369.3902798283
 20
-231.5802313709
 10
371.4636887724
 20
-225.7996455838
 10
373.7354776642
 20
-220.0316929697
 10
376.1998144333
 20
-214.2911715893
 10
378.850382321
 20
-208.5928186206
 10
381.6803640744
 20
-202.9512647301
 10
384.6825051672
 20
-197.3809914923
 10
387.8490927262
 20
-191.8963009695
 10
391.1720029464
 20
-186.5112640049
 10
394.6427063592
 20
-181.239711097
 10
398.2522889062
 20
-176.0951654816
 10
401.9914888175
 20
-171.0908461765
 10
405.8507018799
 20
-166.2395919359
 10
409.8200288524
 20
-161.5538521295
 10
413.8892781001
 20
-157.0456608865
 10
418.0480051073
 20
-152.7265899514
 10
422.2855282819
 20
-148.6077273915
 10
426.5909790055
 20
-144.6996365377
 10
430.9532976814
 20
-141.0123643483
 10
435.3612903703
 20
-137.5553600454
 10
439.8036406433
 20
-134.3375108572
 10
444.2689448143
 20
-131.36707301
 10
448.7457412456
 20
-128.6516730613
 10
453.2225376768
 20
-126.1982738715
 10
457.6878418478
 20
-124.0131812613
 10
462.1301921208
 20
-122.1020019988
 10
466.5381848097
 20
-120.4696462733
 10
470.9005034856
 20
-119.120292527
 10
475.2059542092
 20
-118.0574157854
 10
479.4434773838
 20
-117.2837382285
 10
483.602204391
 20
-116.8012451653
 10
487.6714536387
 20
-116.611181232
 10
491.6407806112
 20
-116.7140336655
 10
495.4999936736
 20
-117.1095353476
 10
499.2391935849
 20
-117.7966663291
 10
502.8487761319
 20
-118.7736766442
 10
506.3194795447
 20
-120.038040687
 10
509.6423897649
 20
-121.5865271748
 10
512.8089773239
 20
-123.4151535234
 10
515.8111184167
 20
-125.5192284355
 10
518.6411001701
 20
-127.8933549427
 10
521.2916680578
 20
-130.5314273681
 10
523.7560048269
 20
-133.426686078
 10
526.0277937187
 20
-136.5716870688
 10
528.1012026628
 20
-139.9583658448
 10
529.9709053514
 20
-143.5780282944
 10
531.632102312
 20
-147.4213841526
 10
533.0805314446
 20
-151.4785591692
 10
534.3124785583
 20
-155.7391468217
 10
535.3247721025
 20
-160.1922067932
 10
536.1148253146
 20
-164.8263060418
 10
536.6805993406
 20
-169.6295537786
 10
537.0206453827
 20
-174.589617821
 10
537.1340888939
 20
-179.6937675581
 10
537.0206453827
 20
-184.9288963851
 10
536.6805993406
 20
-190.2815692309
 10
536.1148253146
 20
-195.7380457538
 10
535.3247721025
 20
-201.2843210249
 10
534.3124785583
 20
-206.9061502446
 10
533.0805314446
 20
-212.5891137583
 10
531.632102312
 20
-218.3186094551
 10
529.9709053514
 20
-224.0799424988
 10
528.1012026628
 20
-229.8583177231
 10
526.0277937187
 20
-235.6389035102
 10
523.7560048269
 20
-241.4068561243
 10
521.2916680578
 20
-247.1473775047
 10
518.6411001701
 20
-252.8457304734
 10
515.8111184167
 20
-258.4872843639
 10
512.8089773239
 20
-264.0575576017
 10
509.6423897649
 20
-269.5422481245
 10
506.3194795447
 20
-274.9272850891
 10
502.8487761319
 20
-280.198837997
 10
499.2391935849
 20
-285.3433836124
 10
495.4999936736
 20
-290.3477029175
 10
491.6407806112
 20
-295.1989571581
 10
487.6714536387
 20
-299.8846969645
 10
483.602204391
 20
-304.3928882075
 10
479.4434773838
 20
-308.7119591426
 10
475.2059542092
 20
-312.8308217025
 10
470.9005034856
 20
-316.7389125563
 10
466.5381848097
 20
-320.4261847457
 10
462.1301921208
 20
-323.8831890487
 10
457.6878418478
 20
-327.1010382368
 10
453.2225376768
 20
-330.071476084
 10
448.7457412456
 20
-332.7868760327
 10
444.2689448143
 20
-335.2402752225
 10
439.8036406433
 20
-337.4253678327
 10
435.3612903703
 20
-339.3365470952
 10
430.9532976814
 20
-340.9689028207
 10
426.5909790055
 20
-342.318256567
 10
422.2855282819
 20
-343.3811333086
 10
418.0480051073
 20
-344.1548108656
 10
413.8892781001
 20
-344.6373039287
 10
409.8200288524
 20
-344.8273678621
 10
405.8507018799
 20
-344.7245154285
 10
401.9914888175
 20
-344.3290137464
 10
398.2522889062
 20
-343.6418827649
 10
394.6427063592
 20
-342.6648724498
 10
391.1720029464
 20
-341.400508407
 10
387.8490927262
 20
-339.8520219192
 10
384.6825051672
 20
-338.0233955706
 10
381.6803640744
 20
-335.9193206585
 10
378.850382321
 20
-333.5451941513
 10
376.1998144333
 20
-330.9071217259
 10
373.7354776642
 20
-328.011863016
 10
371.4636887724
 20
-324.8668620252
 10
369.3902798283
 20
-321.4801832492
 10
367.5205771397
 20
-317.8605207996
 10
365.8593801791
 20
-314.0171649414
 10
364.4109510465
 20
-309.9599899248
 10
363.1790039328
 20
-305.6994022723
 10
362.1667103886
 20
-301.2463423009
 10
361.3766571766
 20
-296.6122430522
 10
360.8108831505
 20
-291.8089953154
 10
360.4708371084
 20
-286.848931273
 10
360.3573935972
 20
-281.7447815359
  0
LWPOLYLINE
  5
E3
330
1F
100
AcDbEntity
  8
0
  6
Continuous
 62
     7
370
    25
100
AcDbPolyline
 90
      113
 70
   128
 43
0.0
 10
376.408715288
 20
-272.4785507611
 10
376.5225170473
 20
-267.7291706813
 10
376.8635588087
 20
-262.863344751
 10
377.4307658276
 20
-257.8963828884
 10
378.2223573997
 20
-252.8439112982
 10
379.2358415924
 20
-247.7218264629
 10
380.4680310504
 20
-242.5462453339
 10
381.9150429952
 20
-237.3334536201
 10
383.572336104
 20
-232.0998510381
 10
385.4346841675
 20
-226.8619026401
 10
387.4962340422
 20
-221.6360916704
 10
389.7504951133
 20
-216.4388617697
 10
392.1903761736
 20
-211.2865652664
 10
394.8082064966
 20
-206.1954053842
 10
397.5957411052
 20
-201.1814088652
 10
400.5442134548
 20
-196.2603499291
 10
403.6443459705
 20
-191.447707688
 10
406.8863816567
 20
-186.7586357308
 10
410.2601236103
 20
-182.2078784762
 10
413.7549560939
 20
-177.8097529233
 10
417.3598840484
 20
-173.5781015071
 10
421.0635594347
 20
-169.526234305
 10
424.8543365518
 20
-165.6669092707
 10
428.7202838904
 20
-162.0122584702
 10
432.6492394503
 20
-158.5737865656
 10
436.6288397171
 20
-155.3623115025
 10
440.6465644426
 20
-152.3879386579
 10
444.6897718771
 20
-149.6600222502
 10
448.7457412456
 20
-147.1871469019
 10
452.801710614
 20
-144.9770996961
 10
456.8449180485
 20
-143.0368281652
 10
460.862642774
 20
-141.3724347807
 10
464.8422430408
 20
-139.9891611777
 10
468.7711986008
 20
-138.8913575501
 10
472.6371459393
 20
-138.0824805624
 10
476.4279230564
 20
-137.5650674987
 10
480.1315984427
 20
-137.3407621207
 10
483.7365263972
 20
-137.4102523148
 10
487.2313588808
 20
-137.7733301705
 10
490.6051008344
 20
-138.428847878
 10
493.8471365206
 20
-139.3747451076
 10
496.9472690363
 20
-140.6080505344
 10
499.8957413859
 20
-142.1248757568
 10
502.6832759945
 20
-143.9204533227
 10
505.3011063176
 20
-145.9891306492
 10
507.7409873779
 20
-148.3244004424
 10
509.9952484489
 20
-150.9189159108
 10
512.0567983236
 20
-153.7645120595
 10
513.9191463871
 20
-156.8522391522
 10
515.5764394959
 20
-160.1723718401
 10
517.0234514407
 20
-163.7144791239
 10
518.2556408987
 20
-167.4674045868
 10
519.2691250915
 20
-171.4193454804
 10
520.0607166635
 20
-175.5578648955
 10
520.6279236824
 20
-179.8699434736
 10
520.9689654438
 20
-184.3420109676
 10
521.0827672031
 20
-188.9599983329
 10
520.9689654438
 20
-193.7093784127
 10
520.6279236824
 20
-198.575204343
 10
520.0607166635
 20
-203.5421662056
 10
519.2691250915
 20
-208.5946377958
 10
518.2556408987
 20
-213.7167226311
 10
517.0234514407
 20
-218.8923037601
 10
515.5764394959
 20
-224.1050954739
 10
513.9191463871
 20
-229.3386980559
 10
512.0567983236
 20
-234.5766464539
 10
509.9952484489
 20
-239.8024574236
 10
507.7409873779
 20
-244.9996873243
 10
505.3011063176
 20
-250.1519838276
 10
502.6832759945
 20
-255.2431437099
 10
499.8957413859
 20
-260.2571402288
 10
496.9472690363
 20
-265.1781991649
 10
493.8471365206
 20
-269.990841406
 10
490.6051008344
 20
-274.6799133632
 10
487.2313588808
 20
-279.2306706178
 10
483.7365263972
 20
-283.6287961707
 10
480.1315984427
 20
-287.8604475869
 10
476.4279230564
 20
-291.912314789
 10
472.6371459393
 20
-295.7716398233
 10
468.7711986008
 20
-299.4262906239
 10
464.8422430408
 20
-302.8647625284
 10
460.862642774
 20
-306.0762375915
 10
456.8449180485
 20
-309.0506104361
 10
452.801710614
 20
-311.7785268438
 10
448.7457412456
 20
-314.2514021921
 10
444.6897718771
 20
-316.4614493979
 10
440.6465644426
 20
-318.4017209288
 10
436.6288397171
 20
-320.0661143133
 10
432.6492394503
 20
-321.4493879163
 10
428.7202838904
 20
-322.547191544
 10
424.8543365518
 20
-323.3560685316
 10
421.0635594347
 20
-323.8734815953
 10
417.3598840484
 20
-324.0977869733
 10
413.7549560939
 20
-324.0282967792
 10
410.2601236103
 20
-323.6652189235
 10
406.8863816567
 20
-323.0097012161
 10
403.6443459705
 20
-322.0638039865
 10
400.5442134548
 20
-320.8304985596
 10
397.5957411052
 20
-319.3136733372
 10
394.8082064966
 20
-317.5180957714
 10
392.1903761736
 20
-315.4494184448
 10
389.7504951133
 20
-313.1141486516
 10
387.4962340422
 20
-310.5196331832
 10
385.4346841675
 20
-307.6740370345
 10
383.572336104
 20
-304.5863099419
 10
381.9150429952
 20
-301.2661772539
 10
380.4680310504
 20
-297.7240699702
 10
379.2358415924
 20
-293.9711445073
 10
378.2223573997
 20
-290.0192036136
 10
377.4307658276
 20
-285.8806841985
 10
376.8635588087
 20
-281.5686056204
 10
376.5225170473
 20
-277.0965381264
 10
376.408715288
 20
-272.4785507611
  0
ARC
  5
E4
330
1F
100
AcDbEntity
  8
0
  6
Continuous
 62
     7
370
    25
100
AcDbCircle
 10
578.8381724827
 20
-214.7499679267
 30
0.0
 40
46.15148626253418
100
AcDbArc
 50
32.0846385167
 51
52.1968826225
  0
ARC
  5
E5
330
1F
100
AcDbEntity
  8
0
  6
Continuous
 62
     7
370
    25
100
AcDbCircle
 10
499.9584208479
 20
-351.4132416848
 30
0.0
 40
46.09879561752067
100
AcDbArc
 50
247.8015297938
 51
267.6798748756
  0
ARC
  5
E6
330
1F
100
AcDbEntity
  8
0
  6
Continuous
 62
     7
370
    25
100
AcDbCircle
 10
613.2303206702
 20
-245.025908888
 30
0.0
 40
42.86995522083057
100
AcDbArc
 50
34.8657741253
 51
44.407401861
  0
ARC
  5
E7
330
1F
100
AcDbEntity
  8
0
  6
Continuous
 62
     7
370
    25
100
AcDbCircle
 10
543.4636286936
 20
-365.6355940064
 30
0.0
 40
43.24581680453839
100
AcDbArc
 50
255.626001442
 51
266.9645683601
  0
LWPOLYLINE
  5
E8
330
1F
100
AcDbEntity
  8
0
  6
Continuous
 62
     7
370
    25
100
AcDbPolyline
 90
       61
 70
   128
 43
0.0
 10
720.6587317131
 20
-257.7910089708
 10
722.8642288805
 20
-259.1682104114
 10
725.6532228237
 20
-261.2388110397
 10
728.2686244346
 20
-263.5758068231
 10
730.7030211363
 20
-266.1725901643
 10
732.9495113822
 20
-269.0217900096
 10
735.0017309982
 20
-272.1153326875
 10
736.853858451
 20
-275.4444479939
 10
738.5006411894
 20
-278.9997026542
 10
739.9374219868
 20
-282.7710124933
 10
741.1601178672
 20
-286.7476926247
 10
742.1652675206
 20
-290.9184696215
 10
742.9500207664
 20
-295.2715210603
 10
743.5121543584
 20
-299.7945051802
 10
743.8500719847
 20
-304.4746046095
 10
743.9628148045
 20
-309.2985533635
 10
743.8500719847
 20
-314.2526722064
 10
743.5121543584
 20
-319.3229230224
 10
742.9500207664
 20
-324.4949327727
 10
742.1652675206
 20
-329.7540410232
 10
741.1601178672
 20
-335.0853391075
 10
739.9374219868
 20
-340.4737138536
 10
738.5006411894
 20
-345.9038954913
 10
736.853858451
 20
-351.3604850303
 10
735.0017309982
 20
-356.8280211761
 10
732.9495113822
 20
-362.2910061877
 10
730.7030211363
 20
-367.7339484615
 10
728.2686244346
 20
-373.1414264072
 10
725.6532228237
 20
-378.4981006149
 10
722.8642288805
 20
-383.7888051082
 10
719.9095504074
 20
-388.9985290917
 10
716.7975640906
 20
-394.1125021203
 10
713.5370838898
 20
-399.1162427656
 10
710.1373610383
 20
-403.9955525327
 10
706.608028725
 20
-408.7366086309
 10
702.959088924
 20
-413.3259715777
 10
699.2008886866
 20
-417.750629303
 10
695.3440779946
 20
-421.9980458149
 10
691.3995913209
 20
-426.0561718444
 10
687.3786081172
 20
-429.9135163253
 10
683.2925277889
 20
-433.559130422
 10
679.1529314997
 20
-436.9826904167
 10
674.9715551713
 20
-440.1744950447
 10
670.7602499706
 20
-443.1254822213
 10
666.5309534986
 20
-445.8273004275
 10
662.2956545581
 20
-448.2722864629
 10
658.0663580861
 20
-450.4535100248
 10
653.8550528854
 20
-452.3647923366
 10
649.673676557
 20
-454.0007020566
 10
645.5340802678
 20
-455.3566182034
 10
641.4479999395
 20
-456.4286920349
 10
637.4270167358
 20
-457.213875942
 10
633.4825300622
 20
-457.7099572868
 10
629.6257193701
 20
-457.9155196157
 10
625.8675191327
 20
-457.8299875236
 10
622.2185793317
 20
-457.4536007953
 10
618.6892470185
 20
-456.7874250497
 10
615.2895241669
 20
-455.8333517361
 10
612.0290439661
 20
-454.5940814016
 10
608.9170576493
 20
-453.0731312947
 10
608.1678763436
 20
-452.6520079031
  0
LWPOLYLINE
  5
E9
330
1F
100
AcDbEntity
  8
0
  6
Continuous
 62
     1
370
    25
100
AcDbPolyline
 90
       60
 70
   128
 43
0.0
 10
608.5113652564
 20
-179.412090052
 10
609.7019557749
 20
-180.4616679353
 10
612.3525236626
 20
-183.0997403608
 10
614.8168604317
 20
-185.9949990707
 10
617.0886493235
 20
-189.1400000615
 10
619.1620582676
 20
-192.5266788374
 10
621.0317609562
 20
-196.146341287
 10
622.6929579168
 20
-199.9896971452
 10
624.1413870494
 20
-204.0468721619
 10
625.373334163
 20
-208.3074598143
 10
626.3856277073
 20
-212.7605197858
 10
627.1756809193
 20
-217.3946190345
 10
627.7414549454
 20
-222.1978667712
 10
628.0815009875
 20
-227.1579308137
 10
628.1949444987
 20
-232.2620805507
 10
628.0815009875
 20
-237.4972093778
 10
627.7414549454
 20
-242.8498822236
 10
627.1756809193
 20
-248.3063587464
 10
626.3856277073
 20
-253.8526340175
 10
625.373334163
 20
-259.4744632372
 10
624.1413870494
 20
-265.1574267509
 10
622.6929579168
 20
-270.8869224478
 10
621.0317609562
 20
-276.6482554914
 10
619.1620582676
 20
-282.4266307158
 10
617.0886493235
 20
-288.2072165029
 10
614.8168604317
 20
-293.975169117
 10
612.3525236626
 20
-299.7156904974
 10
609.7019557749
 20
-305.414043466
 10
606.8719740215
 20
-311.0555973565
 10
603.8698329287
 20
-316.6258705943
 10
600.7032453697
 20
-322.1105611171
 10
597.3803351495
 20
-327.4955980818
 10
593.9096317367
 20
-332.7671509896
 10
590.3000491897
 20
-337.911696605
 10
586.5608492784
 20
-342.9160159101
 10
582.701636216
 20
-347.7672701507
 10
578.7323092435
 20
-352.4530099572
 10
574.6630599958
 20
-356.9612012001
 10
570.5043329886
 20
-361.2802721353
 10
566.266809814
 20
-365.3991346951
 10
561.9613590904
 20
-369.3072255489
 10
557.5990404145
 20
-372.9944977383
 10
553.1910477256
 20
-376.4515020413
 10
548.7486974526
 20
-379.6693512294
 10
544.2833932816
 20
-382.6397890766
 10
539.8065968503
 20
-385.3551890254
 10
535.3298004191
 20
-387.8085882151
 10
530.8644962481
 20
-389.9936808253
 10
526.4221459751
 20
-391.9048600879
 10
522.0141532862
 20
-393.5372158134
 10
517.6518346103
 20
-394.8865695597
 10
513.3463838867
 20
-395.9494463012
 10
509.1088607121
 20
-396.7231238582
 10
504.9501337049
 20
-397.2056169213
 10
500.8808844572
 20
-397.3956808547
 10
496.9115574847
 20
-397.2928284212
 10
493.0523444223
 20
-396.8973267391
 10
489.313144511
 20
-396.2101957575
 10
485.703561964
 20
-395.2331854424
 10
484.3847765374
 20
-394.7923886605
  0
ARC
  5
EA
330
1F
100
AcDbEntity
  8
0
  6
Continuous
 62
     1
370
    25
100
AcDbCircle
 10
634.7920892719
 20
-338.1215486915
 30
0.0
 40
169.0733491928296
100
AcDbArc
 50
133.8323186402
 51
166.1730566087
  0
LWPOLYLINE
  5
EB
330
1F
100
AcDbEntity
  8
0
  6
Continuous
 62
     1
370
    25
100
AcDbPolyline
 90
       52
 70
   128
 43
0.0
 10
617.9406821104
 20
-190.2356165167
 10
619.4396505828
 20
-192.7394169789
 10
621.3086367749
 20
-196.3576861932
 10
622.9691962645
 20
-200.1995636517
 10
624.4170722197
 20
-204.2551811885
 10
625.6485399129
 20
-208.5141322798
 10
626.6604488672
 20
-212.9654781318
 10
627.4501965146
 20
-217.5977978686
 10
628.0157492697
 20
-222.3992022226
 10
628.3556636029
 20
-227.3573609129
 10
628.4690702356
 20
-232.4595452302
 10
628.3556636029
 20
-237.6926660584
 10
628.0157492697
 20
-243.0432814842
 10
627.4501965146
 20
-248.4976591503
 10
626.6604488672
 20
-254.0418021121
 10
625.6485399129
 20
-259.6614731742
 10
624.4170722197
 20
-265.3422465997
 10
622.9691962645
 20
-271.0695461317
 10
621.3086367749
 20
-276.8286647672
 10
619.4396505828
 20
-282.6048195071
 10
617.3670424288
 20
-288.3831817759
 10
615.0961228158
 20
-294.1489230455
 10
612.6327343507
 20
-299.8872361306
 10
609.9831885242
 20
-305.583399062
 10
607.1542920521
 20
-311.2227811724
 10
604.1533047292
 20
-316.7909160968
 10
600.9879341605
 20
-322.2734987306
 10
597.6662988825
 20
-327.6564673558
 10
594.1969336321
 20
-332.9259945161
 10
590.5887366627
 20
-338.0685600162
 10
586.8509750127
 20
-343.0709539642
 10
582.9932423583
 20
-347.9203497724
 10
579.0254405749
 20
-352.6042843831
 10
574.9577560289
 20
-357.1107449593
 10
570.8006279678
 20
-361.4281567144
 10
566.564730081
 20
-365.5454422267
 10
562.2609362555
 20
-369.4520229567
 10
557.9002942338
 20
-373.1378831238
 10
553.4939953214
 20
-376.5935567757
 10
549.0533519958
 20
-379.8101650486
 10
544.5897636625
 20
-382.7794602711
 10
540.1146876788
 20
-385.4938244408
 10
535.6396116951
 20
-387.9462730232
 10
531.1760233617
 20
-390.130527194
 10
526.7353800362
 20
-392.0409765723
 10
522.3290811238
 20
-393.6727073563
 10
517.9684391021
 20
-395.021537301
 10
513.6646452765
 20
-396.0840111526
 10
509.4287473898
 20
-396.8573892397
 10
505.2716193287
 20
-397.339695379
 10
501.2039347826
 20
-397.5296834129
 10
498.0922145178
 20
-397.4742472244
  0
LWPOLYLINE
  5
EC
330
1F
100
AcDbEntity
  8
0
  6
Continuous
 62
     1
370
    25
100
AcDbPolyline
 90
       50
 70
   128
 43
0.0
 10
648.4048404142
 20
-220.5190481871
 10
650.0268882209
 20
-223.0075140571
 10
651.8798059271
 20
-226.3380530242
 10
653.5272946252
 20
-229.8948225928
 10
654.9646865519
 20
-233.6677446706
 10
656.1879039995
 20
-237.646123725
 10
657.1934856582
 20
-241.8186802455
 10
657.9785708105
 20
-246.1735902868
 10
658.5409467468
 20
-250.6985052446
 10
658.8790066188
 20
-255.3806047047
 10
658.9918021221
 20
-260.2066105158
 10
658.8790066188
 20
-265.1628472429
 10
658.5409467468
 20
-270.235262323
 10
657.9785708105
 20
-275.4094827161
 10
657.1934856582
 20
-280.6708327801
 10
656.1879039995
 20
-286.0044091707
 10
654.9646865519
 20
-291.3950850285
 10
653.5272946252
 20
-296.8275844998
 10
651.8798059271
 20
-302.2865040309
 10
650.0268882209
 20
-307.7563762445
 10
647.9737940578
 20
-313.2216912324
 10
645.7263449711
 20
-318.6669573908
 10
643.2909051349
 20
-324.0767470457
 10
640.6743866325
 20
-329.435708621
 10
637.8842073092
 20
-334.7286670151
 10
634.9282644307
 20
-339.9406175154
 10
631.8149504882
 20
-345.0567744688
 10
628.5530794414
 20
-350.0626503634
 10
625.1519025235
 20
-354.9440467041
 10
621.6210634604
 20
-359.6871285341
 10
617.970564226
 20
-364.278450287
 10
614.2107597742
 20
-368.7050014144
 10
610.3523027209
 20
-372.9542261525
 10
606.4061301733
 20
-377.0140858792
 10
602.3834321197
 20
-380.8730773618
 10
598.2956053314
 20
-384.5202472018
 10
594.1542428258
 20
-387.9452709218
 10
589.9710805247
 20
-391.1384350899
 10
585.757976839
 20
-394.0906856068
 10
581.5268748026
 20
-396.7936556498
 10
577.2897671695
 20
-399.2396858211
 10
573.0586651331
 20
-401.4218422066
 10
568.8455614474
 20
-403.3339376646
 10
564.6623991463
 20
-404.9705498848
 10
560.5210366407
 20
-406.3270415363
 10
556.4332098524
 20
-407.3995760444
 10
552.4105117988
 20
-408.1850928733
 10
548.4643392512
 20
-408.6813869896
 10
544.6058821979
 20
-408.8870419404
 10
541.1736114425
 20
-408.8207360356
  0
ARC
  5
ED
330
1F
100
AcDbEntity
  8
0
  6
Continuous
 62
     1
370
    25
100
AcDbCircle
 10
635.8553409632
 20
-338.7353467503
 30
0.0
 40
169.3378744763822
100
AcDbArc
 50
134.4390434116
 51
165.5663344318
  0
LWPOLYLINE
  5
EE
330
1F
100
AcDbEntity
  8
0
  6
Continuous
 62
     1
370
    25
100
AcDbPolyline
 90
       56
 70
   128
 43
0.0
 10
642.7278574832
 20
-213.880655432
 10
643.5717322207
 20
-214.6813316962
 10
646.0061289224
 20
-217.2781150374
 10
648.2526191683
 20
-220.1273148827
 10
650.3048387843
 20
-223.2208575606
 10
652.1569662371
 20
-226.549972867
 10
653.8037489755
 20
-230.1052275273
 10
655.2405297729
 20
-233.8765373664
 10
656.4632256533
 20
-237.8532174978
 10
657.4683753067
 20
-242.0239944946
 10
658.2531285525
 20
-246.3770459334
 10
658.8152621446
 20
-250.9000300533
 10
659.1531797708
 20
-255.5801294826
 10
659.2659225906
 20
-260.4040782366
 10
659.1531797708
 20
-265.3581970795
 10
658.8152621446
 20
-270.4284478955
 10
658.2531285525
 20
-275.6004576458
 10
657.4683753067
 20
-280.8595658963
 10
656.4632256533
 20
-286.1908639806
 10
655.2405297729
 20
-291.5792387267
 10
653.8037489755
 20
-297.0094203644
 10
652.1569662371
 20
-302.4660099034
 10
650.3048387843
 20
-307.9335460492
 10
648.2526191683
 20
-313.3965310608
 10
646.0061289224
 20
-318.8394733346
 10
643.5717322207
 20
-324.2469512803
 10
640.9563306098
 20
-329.6036254879
 10
638.1673366666
 20
-334.8943299813
 10
635.2126581935
 20
-340.1040539648
 10
632.1006718767
 20
-345.2180269934
 10
628.8401916759
 20
-350.2217676387
 10
625.4404688244
 20
-355.1010774057
 10
621.9111365111
 20
-359.842133504
 10
618.2621967101
 20
-364.4314964508
 10
614.5039964727
 20
-368.8561541761
 10
610.6471857807
 20
-373.103570688
 10
606.702699107
 20
-377.1616967174
 10
602.6817159033
 20
-381.0190411983
 10
598.595635575
 20
-384.6646552951
 10
594.4560392858
 20
-388.0882152898
 10
590.2746629574
 20
-391.2800199178
 10
586.0633577567
 20
-394.2310070944
 10
581.8340612847
 20
-396.9328253006
 10
577.5987623442
 20
-399.377811336
 10
573.3694658722
 20
-401.5590348979
 10
569.1581606715
 20
-403.4703172097
 10
564.9767843431
 20
-405.1062269297
 10
560.8371880539
 20
-406.4621430765
 10
556.7511077256
 20
-407.534216908
 10
552.7301245219
 20
-408.3194008151
 10
548.7856378483
 20
-408.8154821599
 10
544.9288271562
 20
-409.0210444887
 10
541.1706269188
 20
-408.9355123967
 10
537.5216871178
 20
-408.5591256684
 10
533.9923548046
 20
-407.8929499228
 10
531.1706812487
 20
-407.1242921581
  0
ENDSEC
  0
SECTION
  2
OBJECTS
  0
DICTIONARY
  5
C
330
0
100
AcDbDictionary
281
     1
  3
ACAD_GROUP
350
D
  3
ACAD_LAYOUT
350
1A
  3
ACAD_MLINESTYLE
350
17
  3
ACAD_PLOTSETTINGS
350
19
  3
ACAD_PLOTSTYLENAME
350
E
  3
ACAD_SCALELIST
350
47
  0
DICTIONARY
  5
D
102
{ACAD_REACTORS
330
C
102
}
330
C
100
AcDbDictionary
281
     1
  0
DICTIONARY
  5
1A
102
{ACAD_REACTORS
330
C
102
}
330
C
100
AcDbDictionary
281
     1
  3
Layout1
350
1E
  3
Layout2
350
26
  3
Model
350
22
  0
DICTIONARY
  5
17
102
{ACAD_REACTORS
330
C
102
}
330
C
100
AcDbDictionary
281
     1
  3
Standard
350
18
  0
DICTIONARY
  5
19
102
{ACAD_REACTORS
330
C
102
}
330
C
100
AcDbDictionary
281
     1
  0
ACDBDICTIONARYWDFLT
  5
E
102
{ACAD_REACTORS
330
C
102
}
330
C
100
AcDbDictionary
281
     1
  3
Normal
350
F
100
AcDbDictionaryWithDefault
340
F
  0
DICTIONARY
  5
47
102
{ACAD_REACTORS
330
C
102
}
330
C
100
AcDbDictionary
281
     1
  3
A0
350
48
  3
A1
350
49
  3
A2
350
4A
  3
A3
350
4B
  3
A4
350
4C
  3
A5
350
4D
  3
A6
350
4E
  3
A7
350
4F
  3
A8
350
50
  3
A9
350
51
  3
B0
350
52
  3
B1
350
53
  3
B2
350
54
  3
B3
350
55
  3
B4
350
56
  3
B5
350
57
  3
B6
350
58
  3
B7
350
59
  3
B8
350
5A
  3
B9
350
5B
  3
C0
350
5C
  3
C1
350
5D
  3
C2
350
5E
  3
C3
350
5F
  3
C4
350
60
  3
C5
350
61
  3
C6
350
62
  3
C7
350
63
  3
C8
350
64
  3
C9
350
65
  3
D0
350
66
  3
D1
350
67
  3
D2
350
68
  0
LAYOUT
  5
1E
102
{ACAD_REACTORS
330
1A
102
}
330
1A
100
AcDbPlotSettings
  1

  2
none_device
  4

  6

 40
0.0
 41
0.0
 42
0.0
 43
0.0
 44
0.0
 45
0.0
 46
0.0
 47
0.0
 48
0.0
 49
0.0
140
0.0
141
0.0
142
1.0
143
1.0
 70
   688
 72
     1
 73
     0
 74
     5
  7

 75
    16
147
1.0
148
0.0
149
0.0
100
AcDbLayout
  1
Layout1
 70
     1
 71
     1
 10
0.0
 20
0.0
 11
420.0
 21
297.0
 12
0.0
 22
0.0
 32
0.0
 14
1.0000000000E+20
 24
1.0000000000E+20
 34
1.0000000000E+20
 15
-1.0000000000E+20
 25
-1.0000000000E+20
 35
-1.0000000000E+20
146
0.0
 13
0.0
 23
0.0
 33
0.0
 16
1.0
 26
0.0
 36
0.0
 17
0.0
 27
1.0
 37
0.0
 76
     0
330
1B
  0
LAYOUT
  5
26
102
{ACAD_REACTORS
330
1A
102
}
330
1A
100
AcDbPlotSettings
  1

  2
none_device
  4

  6

 40
0.0
 41
0.0
 42
0.0
 43
0.0
 44
0.0
 45
0.0
 46
0.0
 47
0.0
 48
0.0
 49
0.0
140
0.0
141
0.0
142
1.0
143
1.0
 70
   688
 72
     1
 73
     0
 74
     5
  7

 75
    16
147
1.0
148
0.0
149
0.0
100
AcDbLayout
  1
Layout2
 70
     1
 71
     2
 10
0.0
 20
0.0
 11
0.0
 21
0.0
 12
0.0
 22
0.0
 32
0.0
 14
0.0
 24
0.0
 34
0.0
 15
0.0
 25
0.0
 35
0.0
146
0.0
 13
0.0
 23
0.0
 33
0.0
 16
1.0
 26
0.0
 36
0.0
 17
0.0
 27
1.0
 37
0.0
 76
     0
330
23
  0
LAYOUT
  5
22
102
{ACAD_REACTORS
330
1A
102
}
330
1A
100
AcDbPlotSettings
  1

  2
none_device
  4
Letter_(8.50_x_11.00_Inches)
  6

 40
6.35
 41
6.35
 42
6.35000508
 43
6.35000508
 44
215.9
 45
279.4
 46
0.0
 47
0.0
 48
0.0
 49
0.0
140
0.0
141
0.0
142
1.0
143
1.0
 70
  1712
 72
     1
 73
     0
 74
     0
  7

 75
     0
147
1.0
148
0.0
149
0.0
100
AcDbLayout
  1
Model
 70
     1
 71
     0
 10
0.0
 20
0.0
 11
279.4
 21
215.9
 12
0.0
 22
0.0
 32
0.0
 14
0.0
 24
0.0
 34
0.0
 15
279.4
 25
215.9
 35
0.0
146
0.0
 13
0.0
 23
0.0
 33
0.0
 16
1.0
 26
0.0
 36
0.0
 17
0.0
 27
1.0
 37
0.0
 76
     0
330
1F
331
29
  0
MLINESTYLE
  5
18
102
{ACAD_REACTORS
330
17
102
}
330
17
100
AcDbMlineStyle
  2
Standard
 70
     0
  3

 62
   256
 51
90.0
 52
90.0
 71
     2
 49
0.5
 62
   256
  6
BYLAYER
 49
-0.5
 62
   256
  6
BYLAYER
  0
ACDBPLACEHOLDER
  5
F
102
{ACAD_REACTORS
330
E
102
}
330
E
  0
SCALE
  5
48
102
{ACAD_REACTORS
330
47
102
}
330
47
100
AcDbScale
 70
     0
300
1:1
140
1.0
141
1.0
290
     1
  0
SCALE
  5
49
102
{ACAD_REACTORS
330
47
102
}
330
47
100
AcDbScale
 70
     0
300
1:2
140
1.0
141
2.0
290
     0
  0
SCALE
  5
4A
102
{ACAD_REACTORS
330
47
102
}
330
47
100
AcDbScale
 70
     0
300
1:4
140
1.0
141
4.0
290
     0
  0
SCALE
  5
4B
102
{ACAD_REACTORS
330
47
102
}
330
47
100
AcDbScale
 70
     0
300
1:5
140
1.0
141
5.0
290
     0
  0
SCALE
  5
4C
102
{ACAD_REACTORS
330
47
102
}
330
47
100
AcDbScale
 70
     0
300
1:8
140
1.0
141
8.0
290
     0
  0
SCALE
  5
4D
102
{ACAD_REACTORS
330
47
102
}
330
47
100
AcDbScale
 70
     0
300
1:10
140
1.0
141
10.0
290
     0
  0
SCALE
  5
4E
102
{ACAD_REACTORS
330
47
102
}
330
47
100
AcDbScale
 70
     0
300
1:16
140
1.0
141
16.0
290
     0
  0
SCALE
  5
4F
102
{ACAD_REACTORS
330
47
102
}
330
47
100
AcDbScale
 70
     0
300
1:20
140
1.0
141
20.0
290
     0
  0
SCALE
  5
50
102
{ACAD_REACTORS
330
47
102
}
330
47
100
AcDbScale
 70
     0
300
1:30
140
1.0
141
30.0
290
     0
  0
SCALE
  5
51
102
{ACAD_REACTORS
330
47
102
}
330
47
100
AcDbScale
 70
     0
300
1:40
140
1.0
141
40.0
290
     0
  0
SCALE
  5
52
102
{ACAD_REACTORS
330
47
102
}
330
47
100
AcDbScale
 70
     0
300
1:50
140
1.0
141
50.0
290
     0
  0
SCALE
  5
53
102
{ACAD_REACTORS
330
47
102
}
330
47
100
AcDbScale
 70
     0
300
1:100
140
1.0
141
100.0
290
     0
  0
SCALE
  5
54
102
{ACAD_REACTORS
330
47
102
}
330
47
100
AcDbScale
 70
     0
300
2:1
140
2.0
141
1.0
290
     0
  0
SCALE
  5
55
102
{ACAD_REACTORS
330
47
102
}
330
47
100
AcDbScale
 70
     0
300
4:1
140
4.0
141
1.0
290
     0
  0
SCALE
  5
56
102
{ACAD_REACTORS
330
47
102
}
330
47
100
AcDbScale
 70
     0
300
8:1
140
8.0
141
1.0
290
     0
  0
SCALE
  5
57
102
{ACAD_REACTORS
330
47
102
}
330
47
100
AcDbScale
 70
     0
300
10:1
140
10.0
141
1.0
290
     0
  0
SCALE
  5
58
102
{ACAD_REACTORS
330
47
102
}
330
47
100
AcDbScale
 70
     0
300
100:1
140
100.0
141
1.0
290
     0
  0
SCALE
  5
59
102
{ACAD_REACTORS
330
47
102
}
330
47
100
AcDbScale
 70
     0
300
1/128" = 1'-0"
140
0.0078125
141
12.0
290
     0
  0
SCALE
  5
5A
102
{ACAD_REACTORS
330
47
102
}
330
47
100
AcDbScale
 70
     0
300
1/64" = 1'-0"
140
0.015625
141
12.0
290
     0
  0
SCALE
  5
5B
102
{ACAD_REACTORS
330
47
102
}
330
47
100
AcDbScale
 70
     0
300
1/32" = 1'-0"
140
0.03125
141
12.0
290
     0
  0
SCALE
  5
5C
102
{ACAD_REACTORS
330
47
102
}
330
47
100
AcDbScale
 70
     0
300
1/16" = 1'-0"
140
0.0625
141
12.0
290
     0
  0
SCALE
  5
5D
102
{ACAD_REACTORS
330
47
102
}
330
47
100
AcDbScale
 70
     0
300
3/32" = 1'-0"
140
0.09375
141
12.0
290
     0
  0
SCALE
  5
5E
102
{ACAD_REACTORS
330
47
102
}
330
47
100
AcDbScale
 70
     0
300
1/8" = 1'-0"
140
0.125
141
12.0
290
     0
  0
SCALE
  5
5F
102
{ACAD_REACTORS
330
47
102
}
330
47
100
AcDbScale
 70
     0
300
3/16" = 1'-0"
140
0.1875
141
12.0
290
     0
  0
SCALE
  5
60
102
{ACAD_REACTORS
330
47
102
}
330
47
100
AcDbScale
 70
     0
300
1/4" = 1'-0"
140
0.25
141
12.0
290
     0
  0
SCALE
  5
61
102
{ACAD_REACTORS
330
47
102
}
330
47
100
AcDbScale
 70
     0
300
3/8" = 1'-0"
140
0.375
141
12.0
290
     0
  0
SCALE
  5
62
102
{ACAD_REACTORS
330
47
102
}
330
47
100
AcDbScale
 70
     0
300
1/2" = 1'-0"
140
0.5
141
12.0
290
     0
  0
SCALE
  5
63
102
{ACAD_REACTORS
330
47
102
}
330
47
100
AcDbScale
 70
     0
300
3/4" = 1'-0"
140
0.75
141
12.0
290
     0
  0
SCALE
  5
64
102
{ACAD_REACTORS
330
47
102
}
330
47
100
AcDbScale
 70
     0
300
1" = 1'-0"
140
1.0
141
12.0
290
     0
  0
SCALE
  5
65
102
{ACAD_REACTORS
330
47
102
}
330
47
100
AcDbScale
 70
     0
300
1-1/2" = 1'-0"
140
1.5
141
12.0
290
     0
  0
SCALE
  5
66
102
{ACAD_REACTORS
330
47
102
}
330
47
100
AcDbScale
 70
     0
300
3" = 1'-0"
140
3.0
141
12.0
290
     0
  0
SCALE
  5
67
102
{ACAD_REACTORS
330
47
102
}
330
47
100
AcDbScale
 70
     0
300
6" = 1'-0"
140
6.0
141
12.0
290
     0
  0
SCALE
  5
68
102
{ACAD_REACTORS
330
47
102
}
330
47
100
AcDbScale
 70
     0
300
1'-0" = 1'-0"
140
12.0
141
12.0
290
     0
  0
ENDSEC
  0
EOF
